ISO-10303-21;
HEADER;
FILE_DESCRIPTION (( 'STEP AP203' ),
    '1' );
FILE_NAME ('MQWP-12.7-632.8.STEP',
    '2020-12-22T09:29:00',
    ( '' ),
    ( '' ),
    'SwSTEP 2.0',
    'SolidWorks 2020',
    '' );
FILE_SCHEMA (( 'CONFIG_CONTROL_DESIGN' ));
ENDSEC;

DATA;
#1 = DIRECTION ( 'NONE',  ( 1.000000000000000000, 0.000000000000000000, 0.000000000000000000 ) ) ;
#2 =( GEOMETRIC_REPRESENTATION_CONTEXT ( 3 ) GLOBAL_UNCERTAINTY_ASSIGNED_CONTEXT ( ( #67 ) ) GLOBAL_UNIT_ASSIGNED_CONTEXT ( ( #15, #122, #59 ) ) REPRESENTATION_CONTEXT ( 'NONE', 'WORKASPACE' ) );
#3 = PRODUCT_DEFINITION_SHAPE ( 'NONE', 'NONE',  #18 ) ;
#4 = CARTESIAN_POINT ( 'NONE',  ( 0.9999999999999997780, 3.000000000000000000, 0.000000000000000000 ) ) ;
#5 = MECHANICAL_CONTEXT ( 'NONE', #102, 'mechanical' ) ;
#6 = PERSON_AND_ORGANIZATION ( #16, #121 ) ;
#7 = APPLICATION_CONTEXT ( 'configuration controlled 3d designs of mechanical parts and assemblies' ) ;
#8 = VERTEX_POINT ( 'NONE', #162 ) ;
#9 = PERSON_AND_ORGANIZATION ( #16, #121 ) ;
#10 = CLOSED_SHELL ( 'NONE', ( #171, #145, #13, #93 ) ) ;
#11 = PERSON_AND_ORGANIZATION ( #16, #121 ) ;
#12 = PRODUCT_RELATED_PRODUCT_CATEGORY ( 'detail', '', ( #82 ) ) ;
#13 = ADVANCED_FACE ( 'NONE', ( #111 ), #124, .F. ) ;
#14 = LINE ( 'NONE', #81, #57 ) ;
#15 =( LENGTH_UNIT ( ) NAMED_UNIT ( * ) SI_UNIT ( .MILLI., .METRE. ) );
#16 = PERSON ( 'UNSPECIFIED', 'UNSPECIFIED', 'UNSPECIFIED', ('UNSPECIFIED'), ('UNSPECIFIED'), ('UNSPECIFIED') ) ;
#17 = DIRECTION ( 'NONE',  ( -1.000000000000000000, 0.000000000000000000, -0.000000000000000000 ) ) ;
#18 = PRODUCT_DEFINITION ( 'UNKNOWN', '', #41, #146 ) ;
#19 = DIRECTION ( 'NONE',  ( -1.000000000000000000, -0.000000000000000000, -0.000000000000000000 ) ) ;
#20 = COORDINATED_UNIVERSAL_TIME_OFFSET ( 8, 0, .AHEAD. ) ;
#21 = COORDINATED_UNIVERSAL_TIME_OFFSET ( 8, 0, .AHEAD. ) ;
#22 = APPROVAL_DATE_TIME ( #127, #170 ) ;
#23 = ORIENTED_EDGE ( 'NONE', *, *, #108, .F. ) ;
#24 = ORIENTED_EDGE ( 'NONE', *, *, #90, .T. ) ;
#25 = DIRECTION ( 'NONE',  ( 1.000000000000000000, 0.000000000000000000, 0.000000000000000000 ) ) ;
#26 = APPROVAL_PERSON_ORGANIZATION ( #9, #36, #169 ) ;
#27 = DIRECTION ( 'NONE',  ( 0.000000000000000000, 0.000000000000000000, 1.000000000000000000 ) ) ;
#28 = CARTESIAN_POINT ( 'NONE',  ( 0.9999999999999995559, 0.000000000000000000, 0.000000000000000000 ) ) ;
#29 = CC_DESIGN_PERSON_AND_ORGANIZATION_ASSIGNMENT ( #34, #118, ( #151 ) ) ;
#30 = PLANE ( 'NONE',  #147 ) ;
#31 = SECURITY_CLASSIFICATION_LEVEL ( 'unclassified' ) ;
#32 = DATE_AND_TIME ( #165, #37 ) ;
#33 = CC_DESIGN_APPROVAL ( #170, ( #41 ) ) ;
#34 = PERSON_AND_ORGANIZATION ( #16, #121 ) ;
#35 = EDGE_LOOP ( 'NONE', ( #89, #158, #23, #56 ) ) ;
#36 = APPROVAL ( #65, 'UNSPECIFIED' ) ;
#37 = LOCAL_TIME ( 17, 29, 0.000000000000000000, #20 ) ;
#38 = EDGE_LOOP ( 'NONE', ( #136, #54 ) ) ;
#39 = DATE_TIME_ROLE ( 'creation_date' ) ;
#40 = AXIS2_PLACEMENT_3D ( 'NONE', #4, #17, #72 ) ;
#41 = PRODUCT_DEFINITION_FORMATION_WITH_SPECIFIED_SOURCE ( 'ANY', '', #82, .NOT_KNOWN. ) ;
#42 = CARTESIAN_POINT ( 'NONE',  ( 0.9999999999999995559, 3.673940397442059868E-16, -3.000000000000000000 ) ) ;
#43 = CARTESIAN_POINT ( 'NONE',  ( 2.449293598294706907E-16, 3.673940397442059868E-16, -3.000000000000000000 ) ) ;
#44 = APPROVAL ( #48, 'UNSPECIFIED' ) ;
#45 = AXIS2_PLACEMENT_3D ( 'NONE', #80, #19, #79 ) ;
#46 = APPLICATION_PROTOCOL_DEFINITION ( 'international standard', 'config_control_design', 1994, #102 ) ;
#47 = CYLINDRICAL_SURFACE ( 'NONE', #45, 3.000000000000000000 ) ;
#48 = APPROVAL_STATUS ( 'not_yet_approved' ) ;
#49 = CC_DESIGN_PERSON_AND_ORGANIZATION_ASSIGNMENT ( #11, #66, ( #41 ) ) ;
#50 = VECTOR ( 'NONE', #138, 1000.000000000000000 ) ;
#51 = CALENDAR_DATE ( 2020, 22, 12 ) ;
#52 = APPROVAL_PERSON_ORGANIZATION ( #133, #44, #84 ) ;
#53 = EDGE_CURVE ( 'NONE', #103, #94, #105, .T. ) ;
#54 = ORIENTED_EDGE ( 'NONE', *, *, #53, .F. ) ;
#55 = CALENDAR_DATE ( 2020, 22, 12 ) ;
#56 = ORIENTED_EDGE ( 'NONE', *, *, #167, .F. ) ;
#57 = VECTOR ( 'NONE', #68, 1000.000000000000000 ) ;
#58 = CARTESIAN_POINT ( 'NONE',  ( 0.9999999999999995559, 0.000000000000000000, 0.000000000000000000 ) ) ;
#59 =( NAMED_UNIT ( * ) SI_UNIT ( $, .STERADIAN. ) SOLID_ANGLE_UNIT ( ) );
#60 = CARTESIAN_POINT ( 'NONE',  ( 0.000000000000000000, 0.000000000000000000, 0.000000000000000000 ) ) ;
#61 = CARTESIAN_POINT ( 'NONE',  ( 0.000000000000000000, 0.000000000000000000, 3.000000000000000000 ) ) ;
#62 = CARTESIAN_POINT ( 'NONE',  ( 0.9999999999999995559, 0.000000000000000000, 3.000000000000000000 ) ) ;
#63 = CC_DESIGN_PERSON_AND_ORGANIZATION_ASSIGNMENT ( #64, #140, ( #18 ) ) ;
#64 = PERSON_AND_ORGANIZATION ( #16, #121 ) ;
#65 = APPROVAL_STATUS ( 'not_yet_approved' ) ;
#66 = PERSON_AND_ORGANIZATION_ROLE ( 'design_supplier' ) ;
#67 = UNCERTAINTY_MEASURE_WITH_UNIT (LENGTH_MEASURE( 1.000000000000000082E-05 ), #15, 'distance_accuracy_value', 'NONE');
#68 = DIRECTION ( 'NONE',  ( -1.000000000000000000, -0.000000000000000000, -0.000000000000000000 ) ) ;
#69 = APPROVAL_PERSON_ORGANIZATION ( #143, #170, #139 ) ;
#70 = CYLINDRICAL_SURFACE ( 'NONE', #144, 3.000000000000000000 ) ;
#71 = DIRECTION ( 'NONE',  ( 0.000000000000000000, 0.000000000000000000, 1.000000000000000000 ) ) ;
#72 = DIRECTION ( 'NONE',  ( -0.000000000000000000, 0.000000000000000000, 1.000000000000000000 ) ) ;
#73 = AXIS2_PLACEMENT_3D ( 'NONE', #150, #112, #107 ) ;
#74 = DATE_AND_TIME ( #91, #157 ) ;
#75 = COORDINATED_UNIVERSAL_TIME_OFFSET ( 8, 0, .AHEAD. ) ;
#76 = DATE_AND_TIME ( #98, #168 ) ;
#77 = CC_DESIGN_PERSON_AND_ORGANIZATION_ASSIGNMENT ( #6, #99, ( #82 ) ) ;
#78 = DIRECTION ( 'NONE',  ( -1.000000000000000000, -0.000000000000000000, -0.000000000000000000 ) ) ;
#79 = DIRECTION ( 'NONE',  ( 0.000000000000000000, 0.000000000000000000, 1.000000000000000000 ) ) ;
#80 = CARTESIAN_POINT ( 'NONE',  ( 0.000000000000000000, 0.000000000000000000, 0.000000000000000000 ) ) ;
#81 = CARTESIAN_POINT ( 'NONE',  ( 0.000000000000000000, 3.673940397442059868E-16, -3.000000000000000000 ) ) ;
#82 = PRODUCT ( 'MQWP-12.7-632.8', 'MQWP-12.7-632.8', '', ( #5 ) ) ;
#83 = DIRECTION ( 'NONE',  ( 0.000000000000000000, 0.000000000000000000, -1.000000000000000000 ) ) ;
#84 = APPROVAL_ROLE ( '' ) ;
#85 = AXIS2_PLACEMENT_3D ( 'NONE', #58, #152, #71 ) ;
#86 = CC_DESIGN_APPROVAL ( #44, ( #18 ) ) ;
#87 = CARTESIAN_POINT ( 'NONE',  ( 0.000000000000000000, 0.000000000000000000, 0.000000000000000000 ) ) ;
#88 = COORDINATED_UNIVERSAL_TIME_OFFSET ( 8, 0, .AHEAD. ) ;
#89 = ORIENTED_EDGE ( 'NONE', *, *, #154, .T. ) ;
#90 = EDGE_CURVE ( 'NONE', #114, #8, #160, .T. ) ;
#91 = CALENDAR_DATE ( 2020, 22, 12 ) ;
#92 = DIRECTION ( 'NONE',  ( 0.000000000000000000, 0.000000000000000000, 1.000000000000000000 ) ) ;
#93 = ADVANCED_FACE ( 'NONE', ( #109 ), #30, .F. ) ;
#94 = VERTEX_POINT ( 'NONE', #62 ) ;
#95 = ORIENTED_EDGE ( 'NONE', *, *, #90, .F. ) ;
#96 = CIRCLE ( 'NONE', #85, 3.000000000000000000 ) ;
#97 = CC_DESIGN_APPROVAL ( #36, ( #151 ) ) ;
#98 = CALENDAR_DATE ( 2020, 22, 12 ) ;
#99 = PERSON_AND_ORGANIZATION_ROLE ( 'design_owner' ) ;
#100 = AXIS2_PLACEMENT_3D ( 'NONE', #28, #137, #123 ) ;
#101 = PERSON_AND_ORGANIZATION_ROLE ( 'creator' ) ;
#102 = APPLICATION_CONTEXT ( 'configuration controlled 3d designs of mechanical parts and assemblies' ) ;
#103 = VERTEX_POINT ( 'NONE', #42 ) ;
#104 = DATE_AND_TIME ( #55, #106 ) ;
#105 = CIRCLE ( 'NONE', #100, 3.000000000000000000 ) ;
#106 = LOCAL_TIME ( 17, 29, 0.000000000000000000, #153 ) ;
#107 = DIRECTION ( 'NONE',  ( 0.000000000000000000, 0.000000000000000000, 1.000000000000000000 ) ) ;
#108 = EDGE_CURVE ( 'NONE', #8, #114, #166, .T. ) ;
#109 = FACE_OUTER_BOUND ( 'NONE', #142, .T. ) ;
#110 = EDGE_CURVE ( 'NONE', #103, #114, #14, .T. ) ;
#111 = FACE_OUTER_BOUND ( 'NONE', #38, .T. ) ;
#112 = DIRECTION ( 'NONE',  ( -1.000000000000000000, -0.000000000000000000, -0.000000000000000000 ) ) ;
#113 = APPLICATION_PROTOCOL_DEFINITION ( 'international standard', 'config_control_design', 1994, #7 ) ;
#114 = VERTEX_POINT ( 'NONE', #43 ) ;
#115 = ORIENTED_EDGE ( 'NONE', *, *, #110, .F. ) ;
#116 = CC_DESIGN_PERSON_AND_ORGANIZATION_ASSIGNMENT ( #156, #101, ( #41 ) ) ;
#117 = EDGE_LOOP ( 'NONE', ( #115, #134, #130, #95 ) ) ;
#118 = PERSON_AND_ORGANIZATION_ROLE ( 'classification_officer' ) ;
#119 = ADVANCED_BREP_SHAPE_REPRESENTATION ( 'MQWP-12.7-632.8', ( #173, #129 ), #2 ) ;
#120 = FACE_OUTER_BOUND ( 'NONE', #117, .T. ) ;
#121 = ORGANIZATION ( 'UNSPECIFIED', 'UNSPECIFIED', '' ) ;
#122 =( NAMED_UNIT ( * ) PLANE_ANGLE_UNIT ( ) SI_UNIT ( $, .RADIAN. ) );
#123 = DIRECTION ( 'NONE',  ( 0.000000000000000000, 0.000000000000000000, 1.000000000000000000 ) ) ;
#124 = PLANE ( 'NONE',  #40 ) ;
#125 = CC_DESIGN_SECURITY_CLASSIFICATION ( #151, ( #41 ) ) ;
#126 = SHAPE_DEFINITION_REPRESENTATION ( #3, #119 ) ;
#127 = DATE_AND_TIME ( #51, #172 ) ;
#128 = AXIS2_PLACEMENT_3D ( 'NONE', #161, #78, #92 ) ;
#129 = AXIS2_PLACEMENT_3D ( 'NONE', #87, #164, #25 ) ;
#130 = ORIENTED_EDGE ( 'NONE', *, *, #167, .T. ) ;
#131 = ORIENTED_EDGE ( 'NONE', *, *, #108, .T. ) ;
#132 = DATE_TIME_ROLE ( 'classification_date' ) ;
#133 = PERSON_AND_ORGANIZATION ( #16, #121 ) ;
#134 = ORIENTED_EDGE ( 'NONE', *, *, #53, .T. ) ;
#135 = CC_DESIGN_DATE_AND_TIME_ASSIGNMENT ( #76, #132, ( #151 ) ) ;
#136 = ORIENTED_EDGE ( 'NONE', *, *, #154, .F. ) ;
#137 = DIRECTION ( 'NONE',  ( -1.000000000000000000, -0.000000000000000000, -0.000000000000000000 ) ) ;
#138 = DIRECTION ( 'NONE',  ( -1.000000000000000000, -0.000000000000000000, -0.000000000000000000 ) ) ;
#139 = APPROVAL_ROLE ( '' ) ;
#140 = PERSON_AND_ORGANIZATION_ROLE ( 'creator' ) ;
#141 = APPROVAL_STATUS ( 'not_yet_approved' ) ;
#142 = EDGE_LOOP ( 'NONE', ( #131, #24 ) ) ;
#143 = PERSON_AND_ORGANIZATION ( #16, #121 ) ;
#144 = AXIS2_PLACEMENT_3D ( 'NONE', #60, #149, #27 ) ;
#145 = ADVANCED_FACE ( 'NONE', ( #120 ), #70, .T. ) ;
#146 = DESIGN_CONTEXT ( 'detailed design', #7, 'design' ) ;
#147 = AXIS2_PLACEMENT_3D ( 'NONE', #174, #1, #83 ) ;
#148 = LINE ( 'NONE', #61, #50 ) ;
#149 = DIRECTION ( 'NONE',  ( -1.000000000000000000, -0.000000000000000000, -0.000000000000000000 ) ) ;
#150 = CARTESIAN_POINT ( 'NONE',  ( 2.449293598294706907E-16, 0.000000000000000000, 0.000000000000000000 ) ) ;
#151 = SECURITY_CLASSIFICATION ( '', '', #31 ) ;
#152 = DIRECTION ( 'NONE',  ( -1.000000000000000000, -0.000000000000000000, -0.000000000000000000 ) ) ;
#153 = COORDINATED_UNIVERSAL_TIME_OFFSET ( 8, 0, .AHEAD. ) ;
#154 = EDGE_CURVE ( 'NONE', #94, #103, #96, .T. ) ;
#155 = APPROVAL_DATE_TIME ( #74, #44 ) ;
#156 = PERSON_AND_ORGANIZATION ( #16, #121 ) ;
#157 = LOCAL_TIME ( 17, 29, 0.000000000000000000, #21 ) ;
#158 = ORIENTED_EDGE ( 'NONE', *, *, #110, .T. ) ;
#159 = APPROVAL_DATE_TIME ( #104, #36 ) ;
#160 = CIRCLE ( 'NONE', #128, 3.000000000000000000 ) ;
#161 = CARTESIAN_POINT ( 'NONE',  ( 2.449293598294706907E-16, 0.000000000000000000, 0.000000000000000000 ) ) ;
#162 = CARTESIAN_POINT ( 'NONE',  ( 2.449293598294706907E-16, 0.000000000000000000, 3.000000000000000000 ) ) ;
#163 = FACE_OUTER_BOUND ( 'NONE', #35, .T. ) ;
#164 = DIRECTION ( 'NONE',  ( 0.000000000000000000, 0.000000000000000000, 1.000000000000000000 ) ) ;
#165 = CALENDAR_DATE ( 2020, 22, 12 ) ;
#166 = CIRCLE ( 'NONE', #73, 3.000000000000000000 ) ;
#167 = EDGE_CURVE ( 'NONE', #94, #8, #148, .T. ) ;
#168 = LOCAL_TIME ( 17, 29, 0.000000000000000000, #88 ) ;
#169 = APPROVAL_ROLE ( '' ) ;
#170 = APPROVAL ( #141, 'UNSPECIFIED' ) ;
#171 = ADVANCED_FACE ( 'NONE', ( #163 ), #47, .T. ) ;
#172 = LOCAL_TIME ( 17, 29, 0.000000000000000000, #75 ) ;
#173 = MANIFOLD_SOLID_BREP ( 'Ðý×', #10 ) ;
#174 = CARTESIAN_POINT ( 'NONE',  ( 1.224646799147353454E-16, 3.000000000000000000, 0.000000000000000000 ) ) ;
#175 = CC_DESIGN_DATE_AND_TIME_ASSIGNMENT ( #32, #39, ( #18 ) ) ;
ENDSEC;
END-ISO-10303-21;
